  0
SECTION
  2
HEADER
  9
$ACADVER
  1
AC1009
  9
$INSBASE
 10
-18.15128561393373
 20
-21.0325969931017
 30
0.0
  9
$EXTMIN
 10
-18.56549917630683
 20
-21.44681055547479
 30
0.0
  9
$EXTMAX
 10
28.26292794843935
 20
11.38161656927139
 30
0.0
  9
$LIMMIN
 10
0.0
 20
0.0
  9
$LIMMAX
 10
14.0
 20
9.0
  9
$ORTHOMODE
 70
     0
  9
$REGENMODE
 70
     1
  9
$FILLMODE
 70
     1
  9
$QTEXTMODE
 70
     0
  9
$MIRRTEXT
 70
     1
  9
$DRAGMODE
 70
     2
  9
$LTSCALE
 40
1.0
  9
$OSMODE
 70
     8
  9
$ATTMODE
 70
     1
  9
$TEXTSIZE
 40
0.2
  9
$TRACEWID
 40
0.05
  9
$TEXTSTYLE
  7
STANDARD
  9
$CLAYER
  8
0
  9
$CELTYPE
  6
BYLAYER
  9
$CECOLOR
 62
   256
  9
$DIMSCALE
 40
1.0
  9
$DIMASZ
 40
0.18
  9
$DIMEXO
 40
0.0625
  9
$DIMDLI
 40
0.3799999999999999
  9
$DIMRND
 40
0.0
  9
$DIMDLE
 40
0.0
  9
$DIMEXE
 40
0.18
  9
$DIMTP
 40
0.0
  9
$DIMTM
 40
0.0
  9
$DIMTXT
 40
0.18
  9
$DIMCEN
 40
0.09
  9
$DIMTSZ
 40
0.0
  9
$DIMTOL
 70
     0
  9
$DIMLIM
 70
     0
  9
$DIMTIH
 70
     1
  9
$DIMTOH
 70
     1
  9
$DIMSE1
 70
     0
  9
$DIMSE2
 70
     0
  9
$DIMTAD
 70
     0
  9
$DIMZIN
 70
     0
  9
$DIMBLK
  1

  9
$DIMASO
 70
     0
  9
$DIMSHO
 70
     0
  9
$DIMPOST
  1

  9
$DIMAPOST
  1

  9
$DIMALT
 70
     0
  9
$DIMALTD
 70
     2
  9
$DIMALTF
 40
25.39999999999999
  9
$DIMLFAC
 40
1.0
  9
$DIMTOFL
 70
     0
  9
$DIMTVP
 40
0.0
  9
$DIMTIX
 70
     0
  9
$DIMSOXD
 70
     0
  9
$DIMSAH
 70
     0
  9
$DIMBLK1
  1

  9
$DIMBLK2
  1

  9
$DIMSTYLE
  2
*UNNAMED
  9
$DIMCLRD
 70
     0
  9
$DIMCLRE
 70
     0
  9
$DIMCLRT
 70
     0
  9
$DIMTFAC
 40
1.0
  9
$DIMGAP
 40
0.09
  9
$LUNITS
 70
     2
  9
$LUPREC
 70
     4
  9
$SKETCHINC
 40
0.1
  9
$FILLETRAD
 40
2.0
  9
$AUNITS
 70
     0
  9
$AUPREC
 70
     0
  9
$MENU
  1
acad
  9
$ELEVATION
 40
0.0
  9
$PELEVATION
 40
0.0
  9
$THICKNESS
 40
0.0
  9
$LIMCHECK
 70
     0
  9
$BLIPMODE
 70
     1
  9
$CHAMFERA
 40
0.0
  9
$CHAMFERB
 40
0.0
  9
$SKPOLY
 70
     0
  9
$TDCREATE
 40
2448966.496965046
  9
$TDUPDATE
 40
2449393.441616203
  9
$TDINDWG
 40
0.0042046296
  9
$TDUSRTIMER
 40
0.0042046296
  9
$USRTIMER
 70
     1
  9
$ANGBASE
 50
0.0
  9
$ANGDIR
 70
     0
  9
$PDMODE
 70
     0
  9
$PDSIZE
 40
0.0
  9
$PLINEWID
 40
0.0
  9
$COORDS
 70
     0
  9
$SPLFRAME
 70
     0
  9
$SPLINETYPE
 70
     6
  9
$SPLINESEGS
 70
     8
  9
$ATTDIA
 70
     0
  9
$ATTREQ
 70
     1
  9
$HANDLING
 70
     0
  9
$HANDSEED
  5
0
  9
$SURFTAB1
 70
     6
  9
$SURFTAB2
 70
     6
  9
$SURFTYPE
 70
     6
  9
$SURFU
 70
     6
  9
$SURFV
 70
     6
  9
$UCSNAME
  2

  9
$UCSORG
 10
0.0
 20
0.0
 30
0.0
  9
$UCSXDIR
 10
1.0
 20
0.0
 30
0.0
  9
$UCSYDIR
 10
0.0
 20
1.0
 30
0.0
  9
$PUCSNAME
  2

  9
$PUCSORG
 10
0.0
 20
0.0
 30
0.0
  9
$PUCSXDIR
 10
1.0
 20
0.0
 30
0.0
  9
$PUCSYDIR
 10
0.0
 20
1.0
 30
0.0
  9
$USERI1
 70
     0
  9
$USERI2
 70
     0
  9
$USERI3
 70
     0
  9
$USERI4
 70
     0
  9
$USERI5
 70
     0
  9
$USERR1
 40
0.0
  9
$USERR2
 40
0.0
  9
$USERR3
 40
0.0
  9
$USERR4
 40
0.0
  9
$USERR5
 40
0.0
  9
$WORLDVIEW
 70
     1
  9
$SHADEDGE
 70
     3
  9
$SHADEDIF
 70
    70
  9
$TILEMODE
 70
     1
  9
$MAXACTVP
 70
    16
  9
$PINSBASE
 10
0.0
 20
0.0
 30
0.0
  9
$PLIMCHECK
 70
     0
  9
$PEXTMIN
 10
1.000000000000000E+20
 20
1.000000000000000E+20
 30
1.000000000000000E+20
  9
$PEXTMAX
 10
-1.000000000000000E+20
 20
-1.000000000000000E+20
 30
-1.000000000000000E+20
  9
$PLIMMIN
 10
0.0
 20
0.0
  9
$PLIMMAX
 10
12.0
 20
9.0
  9
$UNITMODE
 70
     0
  9
$VISRETAIN
 70
     0
  9
$PLINEGEN
 70
     0
  9
$PSLTSCALE
 70
     0
  9
$TREEDEPTH
 70
  3020
  9
$DWGCODEPAGE
  3
undefined
  0
ENDSEC
  0
SECTION
  2
TABLES
  0
TABLE
  2
VPORT
 70
     2
  0
VPORT
  2
*ACTIVE
 70
     0
 10
0.0
 20
0.0
 11
1.0
 21
1.0
 12
4.848714386066263
 22
-3.002935976152578
 13
0.0
 23
0.0
 14
1.0
 24
1.0
 15
0.0
 25
0.0
 16
0.0
 26
0.0
 36
1.0
 17
0.0
 27
0.0
 37
0.0
 40
36.0593220338983
 41
1.275675675675675
 42
50.0
 43
0.0
 44
0.0
 50
0.0
 51
0.0
 71
     0
 72
   100
 73
     1
 74
     1
 75
     0
 76
     0
 77
     0
 78
     0
  0
ENDTAB
  0
TABLE
  2
LTYPE
 70
     2
  0
LTYPE
  2
CONTINUOUS
 70
    64
  3
Solid line
 72
    65
 73
     0
 40
0.0
  0
LTYPE
  2
AUSGEZOGEN
 70
    64
  3
Solid line
 72
    65
 73
     0
 40
0.0
  0
ENDTAB
  0
TABLE
  2
LAYER
 70
     4
  0
LAYER
  2
0
 70
    64
 62
     7
  6
CONTINUOUS
  0
LAYER
  2
ITEM_50
 70
    64
 62
     7
  6
AUSGEZOGEN
  0
LAYER
  2
ITEM_25
 70
    64
 62
     3
  6
AUSGEZOGEN
  0
LAYER
  2
ITEM_HILFE
 70
    64
 62
     3
  6
AUSGEZOGEN
  0
ENDTAB
  0
TABLE
  2
STYLE
 70
     1
  0
STYLE
  2
STANDARD
 70
     0
 40
0.0
 41
1.0
 50
0.0
 71
     0
 42
0.2
  3
txt
  4

  0
ENDTAB
  0
TABLE
  2
VIEW
 70
     0
  0
ENDTAB
  0
TABLE
  2
UCS
 70
     0
  0
ENDTAB
  0
TABLE
  2
APPID
 70
     1
  0
APPID
  2
ACAD
 70
    64
  0
ENDTAB
  0
TABLE
  2
DIMSTYLE
 70
     0
  0
ENDTAB
  0
ENDSEC
  0
SECTION
  2
BLOCKS
  0
BLOCK
  8
0
  2
X0002679
 70
     0
 10
0.0
 20
0.0
 30
0.0
  3
X0002679
  0
LINE
  8
ITEM_50
 10
-26.99999999999999
 20
6.4450261780105
 30
0.0
 11
13.0
 21
6.4450261780105
 31
0.0
  0
LINE
  8
ITEM_50
 10
13.0
 20
6.4450261780105
 30
0.0
 11
13.0
 21
8.4450261780105
 31
0.0
  0
ARC
  8
ITEM_50
 10
11.0
 20
8.4450261780105
 30
0.0
 40
2.0
 50
0.0
 51
90.0
  0
LINE
  8
ITEM_50
 10
11.0
 20
10.4450261780105
 30
0.0
 11
-24.99999999999999
 21
10.4450261780105
 31
0.0
  0
ARC
  8
ITEM_50
 10
-24.99999999999999
 20
8.4450261780105
 30
0.0
 40
2.0
 50
90.0
 51
180.0
  0
LINE
  8
ITEM_50
 10
-26.99999999999999
 20
8.4450261780105
 30
0.0
 11
-26.99999999999999
 21
6.4450261780105
 31
0.0
  0
ARC
  8
ITEM_50
 10
25.0
 20
-17.55497382198949
 30
0.0
 40
2.0
 50
270.0
 51
0.0
  0
LINE
  8
ITEM_50
 10
25.0
 20
-19.55497382198949
 30
0.0
 11
23.0
 21
-19.55497382198949
 31
0.0
  0
LINE
  8
ITEM_50
 10
23.0
 20
-19.55497382198949
 30
0.0
 11
23.0
 21
-3.554973821989499
 31
0.0
  0
LINE
  8
ITEM_50
 10
23.0
 20
-3.554973821989499
 30
0.0
 11
25.0
 21
-3.554973821989499
 31
0.0
  0
ARC
  8
ITEM_50
 10
25.0
 20
-5.554973821989499
 30
0.0
 40
2.0
 50
0.0
 51
90.0
  0
LINE
  8
ITEM_50
 10
27.0
 20
-5.554973821989499
 30
0.0
 11
27.0
 21
-17.55497382198949
 31
0.0
  0
POINT
  8
ITEM_HILFE
 10
-26.99999999999999
 20
-19.55497382198949
 30
0.0
  0
POINT
  8
ITEM_HILFE
 10
13.0
 20
-19.55497382198952
 30
0.0
  0
POINT
  8
ITEM_HILFE
 10
13.0
 20
-3.554973821989499
 30
0.0
  0
POINT
  8
ITEM_HILFE
 10
-26.99999999999999
 20
-3.55497382198947
 30
0.0
  0
ARC
  8
ITEM_50
 10
9.500000000003186
 20
-7.054973821986344
 30
0.0
 40
3.5
 50
0.0
 51
90.0
  0
LINE
  8
ITEM_50
 10
13.00000000000318
 20
-7.054973821986344
 30
0.0
 11
13.00000000000318
 21
-16.05497382198634
 31
0.0
  0
ARC
  8
ITEM_50
 10
9.500000000003186
 20
-16.05497382198634
 30
0.0
 40
3.5
 50
270.0
 51
0.0
  0
LINE
  8
ITEM_50
 10
9.500000000003186
 20
-19.55497382198634
 30
0.0
 11
-23.49999999999681
 21
-19.55497382198634
 31
0.0
  0
ARC
  8
ITEM_50
 10
-23.49999999999681
 20
-16.05497382198634
 30
0.0
 40
3.5
 50
180.0
 51
270.0
  0
LINE
  8
ITEM_50
 10
-26.99999999999681
 20
-16.05497382198634
 30
0.0
 11
-26.99999999999681
 21
-7.054973821986344
 31
0.0
  0
ARC
  8
ITEM_50
 10
-23.49999999999681
 20
-7.054973821986344
 30
0.0
 40
3.5
 50
90.0
 51
180.0
  0
LINE
  8
ITEM_50
 10
-23.49999999999681
 20
-3.554973821986344
 30
0.0
 11
9.500000000003186
 21
-3.554973821986344
 31
0.0
  0
LINE
  8
ITEM_25
 10
-24.99999999999681
 20
-15.55497382198634
 30
0.0
 11
-24.99999999999681
 21
-7.554973821986344
 31
0.0
  0
LINE
  8
ITEM_25
 10
9.000000000003186
 20
-17.55497382198634
 30
0.0
 11
-22.99999999999681
 21
-17.55497382198634
 31
0.0
  0
LINE
  8
ITEM_25
 10
-22.99999999999681
 20
-5.554973821986344
 30
0.0
 11
9.000000000003186
 21
-5.554973821986344
 31
0.0
  0
LINE
  8
ITEM_25
 10
11.00000000000318
 20
-7.554973821986344
 30
0.0
 11
11.00000000000318
 21
-15.55497382198634
 31
0.0
  0
ENDBLK
  8
0
  0
ENDSEC
  0
SECTION
  2
ENTITIES
  0
LINE
  8
ITEM_50
 10
-18.15128561393373
 20
6.967403006898296
 30
0.0
 11
13.84871438606626
 21
6.967403006898296
 31
0.0
  0
LINE
  8
ITEM_50
 10
13.84871438606626
 20
6.967403006898296
 30
0.0
 11
13.84871438606626
 21
8.967403006898296
 31
0.0
  0
ARC
  8
ITEM_50
 10
11.84871438606626
 20
8.967403006898296
 30
0.0
 40
2.0
 50
0.0
 51
90.0
  0
LINE
  8
ITEM_50
 10
11.84871438606626
 20
10.96740300689829
 30
0.0
 11
-16.15128561393373
 21
10.96740300689829
 31
0.0
  0
ARC
  8
ITEM_50
 10
-16.15128561393373
 20
8.967403006898296
 30
0.0
 40
2.0
 50
90.0
 51
180.0
  0
LINE
  8
ITEM_50
 10
-18.15128561393373
 20
8.967403006898296
 30
0.0
 11
-18.15128561393373
 21
6.967403006898296
 31
0.0
  0
ARC
  8
ITEM_50
 10
25.84871438606626
 20
-19.0325969931017
 30
0.0
 40
2.0
 50
270.0
 51
0.0
  0
LINE
  8
ITEM_50
 10
25.84871438606626
 20
-21.0325969931017
 30
0.0
 11
23.84871438606626
 21
-21.0325969931017
 31
0.0
  0
LINE
  8
ITEM_50
 10
23.84871438606626
 20
-21.0325969931017
 30
0.0
 11
23.84871438606626
 21
-3.032596993101703
 31
0.0
  0
LINE
  8
ITEM_50
 10
23.84871438606626
 20
-3.032596993101703
 30
0.0
 11
25.84871438606626
 21
-3.032596993101703
 31
0.0
  0
ARC
  8
ITEM_50
 10
25.84871438606626
 20
-5.032596993101703
 30
0.0
 40
2.0
 50
0.0
 51
90.0
  0
LINE
  8
ITEM_50
 10
27.84871438606626
 20
-5.032596993101703
 30
0.0
 11
27.84871438606626
 21
-19.0325969931017
 31
0.0
  0
POINT
  8
ITEM_HILFE
 10
-18.15128561393373
 20
-21.0325969931017
 30
0.0
  0
POINT
  8
ITEM_HILFE
 10
13.84871438606626
 20
-21.03259699310173
 30
0.0
  0
POINT
  8
ITEM_HILFE
 10
13.84871438606626
 20
-3.032596993101703
 30
0.0
  0
POINT
  8
ITEM_HILFE
 10
-18.15128561393373
 20
-3.032596993101675
 30
0.0
  0
LINE
  8
ITEM_50
 10
13.84871438606944
 20
-5.032596993098549
 30
0.0
 11
13.84871438606944
 21
-19.03259699309854
 31
0.0
  0
LINE
  8
ITEM_50
 10
11.84871438606944
 20
-21.03259699309854
 30
0.0
 11
-16.15128561393055
 21
-21.03259699309855
 31
0.0
  0
LINE
  8
ITEM_50
 10
-18.15128561393055
 20
-19.03259699309855
 30
0.0
 11
-18.15128561393055
 21
-5.032596993098549
 31
0.0
  0
LINE
  8
ITEM_50
 10
-16.15128561393055
 20
-3.032596993098549
 30
0.0
 11
11.84871438606944
 21
-3.032596993098549
 31
0.0
  0
LINE
  8
ITEM_25
 10
-16.15128561393055
 20
-17.03259699309855
 30
0.0
 11
-16.15128561393055
 21
-7.032596993098549
 31
0.0
  0
LINE
  8
ITEM_25
 10
9.848714386069447
 20
-19.03259699309854
 30
0.0
 11
-14.15128561393055
 21
-19.03259699309854
 31
0.0
  0
LINE
  8
ITEM_25
 10
-14.15128561393055
 20
-5.032596993098549
 30
0.0
 11
9.848714386069447
 21
-5.032596993098549
 31
0.0
  0
LINE
  8
ITEM_25
 10
11.84871438606944
 20
-7.032596993098549
 30
0.0
 11
11.84871438606944
 21
-17.03259699309855
 31
0.0
  0
ARC
  8
ITEM_50
 10
-16.15128561393055
 20
-5.032596993098549
 30
0.0
 40
2.0
 50
90.0
 51
180.0
  0
ARC
  8
ITEM_50
 10
11.84871438606944
 20
-5.032596993098549
 30
0.0
 40
2.0
 50
0.0
 51
90.0
  0
ARC
  8
ITEM_50
 10
11.84871438606944
 20
-19.03259699309854
 30
0.0
 40
2.0
 50
270.0
 51
0.0
  0
ARC
  8
ITEM_50
 10
-16.15128561393055
 20
-19.03259699309855
 30
0.0
 40
2.0
 50
180.0
 51
270.0
  0
ENDSEC
  0
EOF
